ISO-10303-21;
HEADER;
FILE_DESCRIPTION (( 'STEP AP203' ),
    '1' );
FILE_NAME ('QM-AAQWP-20-550-750-M.STEP',
    '2021-01-05T02:43:10',
    ( '' ),
    ( '' ),
    'SwSTEP 2.0',
    'SolidWorks 2020',
    '' );
FILE_SCHEMA (( 'CONFIG_CONTROL_DESIGN' ));
ENDSEC;

DATA;
#1 = ORIENTED_EDGE ( 'NONE', *, *, #281, .T. ) ;
#2 = DIRECTION ( 'NONE',  ( 0.000000000000000000, 0.000000000000000000, 1.000000000000000000 ) ) ;
#3 = ADVANCED_FACE ( 'NONE', ( #335 ), #280, .F. ) ;
#4 = CARTESIAN_POINT ( 'NONE',  ( -1.614212418857619014, 0.000000000000000000, 10.00000000000000000 ) ) ;
#5 = DIRECTION ( 'NONE',  ( -1.000000000000000000, -0.000000000000000000, -0.000000000000000000 ) ) ;
#6 = CARTESIAN_POINT ( 'NONE',  ( -3.000000000000000000, 0.000000000000000000, 12.69999999999999929 ) ) ;
#7 =( NAMED_UNIT ( * ) PLANE_ANGLE_UNIT ( ) SI_UNIT ( $, .RADIAN. ) );
#8 = CIRCLE ( 'NONE', #162, 12.69999999999999929 ) ;
#9 = LOCAL_TIME ( 10, 43, 10.00000000000000000, #193 ) ;
#10 = DIRECTION ( 'NONE',  ( -1.000000000000000000, -0.000000000000000000, -0.000000000000000000 ) ) ;
#11 = DIRECTION ( 'NONE',  ( 1.000000000000000000, 0.000000000000000000, 0.000000000000000000 ) ) ;
#12 = DIRECTION ( 'NONE',  ( 0.000000000000000000, 0.000000000000000000, 1.000000000000000000 ) ) ;
#13 = DESIGN_CONTEXT ( 'detailed design', #169, 'design' ) ;
#14 = CARTESIAN_POINT ( 'NONE',  ( -1.614212418857619014, 0.000000000000000000, 0.000000000000000000 ) ) ;
#15 =( NAMED_UNIT ( * ) SI_UNIT ( $, .STERADIAN. ) SOLID_ANGLE_UNIT ( ) );
#16 = CIRCLE ( 'NONE', #31, 12.69999999999999929 ) ;
#17 = CARTESIAN_POINT ( 'NONE',  ( 3.000000000000000000, 0.000000000000000000, 0.000000000000000000 ) ) ;
#18 = APPLICATION_PROTOCOL_DEFINITION ( 'international standard', 'config_control_design', 1994, #78 ) ;
#19 = APPROVAL_STATUS ( 'not_yet_approved' ) ;
#20 = VECTOR ( 'NONE', #128, 1000.000000000000000 ) ;
#21 = PRODUCT_DEFINITION_FORMATION_WITH_SPECIFIED_SOURCE ( 'ANY', '', #177, .NOT_KNOWN. ) ;
#22 = DIRECTION ( 'NONE',  ( -1.000000000000000000, -0.000000000000000000, -0.000000000000000000 ) ) ;
#23 = ADVANCED_FACE ( 'NONE', ( #203, #310 ), #98, .F. ) ;
#24 = ORIENTED_EDGE ( 'NONE', *, *, #57, .T. ) ;
#25 = CARTESIAN_POINT ( 'NONE',  ( -1.614212418857619014, 0.000000000000000000, 0.000000000000000000 ) ) ;
#26 = VECTOR ( 'NONE', #107, 1000.000000000000000 ) ;
#27 = VERTEX_POINT ( 'NONE', #75 ) ;
#28 = EDGE_CURVE ( 'NONE', #179, #120, #226, .T. ) ;
#29 = FACE_OUTER_BOUND ( 'NONE', #239, .T. ) ;
#30 = CARTESIAN_POINT ( 'NONE',  ( -1.614212418857619014, 1.224646799147353256E-15, -10.00000000000000000 ) ) ;
#31 = AXIS2_PLACEMENT_3D ( 'NONE', #17, #324, #194 ) ;
#32 = CARTESIAN_POINT ( 'NONE',  ( -1.614212418857619014, 1.555301434917138433E-15, -12.69999999999999929 ) ) ;
#33 = ADVANCED_FACE ( 'NONE', ( #334 ), #95, .F. ) ;
#34 = CARTESIAN_POINT ( 'NONE',  ( -3.000000000000000000, 0.000000000000000000, 0.000000000000000000 ) ) ;
#35 = CYLINDRICAL_SURFACE ( 'NONE', #181, 12.69999999999999929 ) ;
#36 = EDGE_CURVE ( 'NONE', #173, #141, #224, .T. ) ;
#37 = DIRECTION ( 'NONE',  ( 0.000000000000000000, 0.000000000000000000, 1.000000000000000000 ) ) ;
#38 = PERSON_AND_ORGANIZATION_ROLE ( 'design_owner' ) ;
#39 = AXIS2_PLACEMENT_3D ( 'NONE', #234, #285, #88 ) ;
#40 = EDGE_LOOP ( 'NONE', ( #241, #282 ) ) ;
#41 = PERSON_AND_ORGANIZATION ( #247, #155 ) ;
#42 = ORIENTED_EDGE ( 'NONE', *, *, #82, .T. ) ;
#43 = EDGE_CURVE ( 'NONE', #27, #173, #207, .T. ) ;
#44 = DIRECTION ( 'NONE',  ( 1.000000000000000000, 0.000000000000000000, 0.000000000000000000 ) ) ;
#45 =( GEOMETRIC_REPRESENTATION_CONTEXT ( 3 ) GLOBAL_UNCERTAINTY_ASSIGNED_CONTEXT ( ( #243 ) ) GLOBAL_UNIT_ASSIGNED_CONTEXT ( ( #309, #7, #15 ) ) REPRESENTATION_CONTEXT ( 'NONE', 'WORKASPACE' ) );
#46 = APPROVAL_STATUS ( 'not_yet_approved' ) ;
#47 = ORIENTED_EDGE ( 'NONE', *, *, #36, .F. ) ;
#48 = CIRCLE ( 'NONE', #129, 10.00000000000000000 ) ;
#49 = VERTEX_POINT ( 'NONE', #316 ) ;
#50 = APPROVAL_DATE_TIME ( #157, #197 ) ;
#51 = EDGE_LOOP ( 'NONE', ( #68, #73 ) ) ;
#52 = ORIENTED_EDGE ( 'NONE', *, *, #103, .F. ) ;
#53 = ADVANCED_FACE ( 'NONE', ( #319, #29 ), #131, .F. ) ;
#54 = AXIS2_PLACEMENT_3D ( 'NONE', #127, #288, #2 ) ;
#55 = DIRECTION ( 'NONE',  ( 0.000000000000000000, 0.000000000000000000, 1.000000000000000000 ) ) ;
#56 = COORDINATED_UNIVERSAL_TIME_OFFSET ( 8, 0, .AHEAD. ) ;
#57 = EDGE_CURVE ( 'NONE', #308, #69, #8, .T. ) ;
#58 = CARTESIAN_POINT ( 'NONE',  ( -0.5000000000000006661, 1.224646799147353256E-15, -10.00000000000000000 ) ) ;
#59 = CYLINDRICAL_SURFACE ( 'NONE', #118, 12.69999999999999929 ) ;
#60 = CARTESIAN_POINT ( 'NONE',  ( 0.5000000000000013323, 0.000000000000000000, 10.00000000000000000 ) ) ;
#61 = FACE_OUTER_BOUND ( 'NONE', #305, .T. ) ;
#62 = DATE_TIME_ROLE ( 'classification_date' ) ;
#63 = CARTESIAN_POINT ( 'NONE',  ( 2.999999999999999112, 0.000000000000000000, 10.00000000000000000 ) ) ;
#64 = COORDINATED_UNIVERSAL_TIME_OFFSET ( 8, 0, .AHEAD. ) ;
#65 = APPROVAL_DATE_TIME ( #136, #93 ) ;
#66 = ORIENTED_EDGE ( 'NONE', *, *, #140, .T. ) ;
#67 = EDGE_LOOP ( 'NONE', ( #304, #182, #205, #70 ) ) ;
#68 = ORIENTED_EDGE ( 'NONE', *, *, #242, .T. ) ;
#69 = VERTEX_POINT ( 'NONE', #6 ) ;
#70 = ORIENTED_EDGE ( 'NONE', *, *, #28, .F. ) ;
#71 = AXIS2_PLACEMENT_3D ( 'NONE', #317, #261, #84 ) ;
#72 = APPROVAL_PERSON_ORGANIZATION ( #41, #307, #91 ) ;
#73 = ORIENTED_EDGE ( 'NONE', *, *, #103, .T. ) ;
#74 = PLANE ( 'NONE',  #331 ) ;
#75 = CARTESIAN_POINT ( 'NONE',  ( 2.999999999999999112, 1.224646799147353256E-15, -10.00000000000000000 ) ) ;
#76 = DIRECTION ( 'NONE',  ( 0.000000000000000000, 0.000000000000000000, 1.000000000000000000 ) ) ;
#77 = DIRECTION ( 'NONE',  ( -1.000000000000000000, -0.000000000000000000, -0.000000000000000000 ) ) ;
#78 = APPLICATION_CONTEXT ( 'configuration controlled 3d designs of mechanical parts and assemblies' ) ;
#79 = CARTESIAN_POINT ( 'NONE',  ( -1.614212418857619014, 0.000000000000000000, 0.000000000000000000 ) ) ;
#80 = DIRECTION ( 'NONE',  ( -1.000000000000000000, -0.000000000000000000, -0.000000000000000000 ) ) ;
#81 = SHAPE_DEFINITION_REPRESENTATION ( #150, #178 ) ;
#82 = EDGE_CURVE ( 'NONE', #120, #49, #276, .T. ) ;
#83 = DIRECTION ( 'NONE',  ( -1.000000000000000000, -0.000000000000000000, -0.000000000000000000 ) ) ;
#84 = DIRECTION ( 'NONE',  ( 0.000000000000000000, 0.000000000000000000, 1.000000000000000000 ) ) ;
#85 = DIRECTION ( 'NONE',  ( -1.000000000000000000, 0.000000000000000000, -0.000000000000000000 ) ) ;
#86 = CARTESIAN_POINT ( 'NONE',  ( 2.999999999999999112, 0.000000000000000000, 0.000000000000000000 ) ) ;
#87 = CALENDAR_DATE ( 2021, 5, 1 ) ;
#88 = DIRECTION ( 'NONE',  ( 0.000000000000000000, 0.000000000000000000, -1.000000000000000000 ) ) ;
#89 = CALENDAR_DATE ( 2021, 5, 1 ) ;
#90 = FACE_OUTER_BOUND ( 'NONE', #222, .T. ) ;
#91 = APPROVAL_ROLE ( '' ) ;
#92 = DATE_TIME_ROLE ( 'creation_date' ) ;
#93 = APPROVAL ( #134, 'UNSPECIFIED' ) ;
#94 = CIRCLE ( 'NONE', #220, 10.00000000000000000 ) ;
#95 = PLANE ( 'NONE',  #122 ) ;
#96 = VERTEX_POINT ( 'NONE', #58 ) ;
#97 = EDGE_CURVE ( 'NONE', #96, #49, #259, .T. ) ;
#98 = PLANE ( 'NONE',  #231 ) ;
#99 = CC_DESIGN_APPROVAL ( #307, ( #297 ) ) ;
#100 = ORIENTED_EDGE ( 'NONE', *, *, #115, .T. ) ;
#101 = CARTESIAN_POINT ( 'NONE',  ( -1.614212418857619014, 0.000000000000000000, 0.000000000000000000 ) ) ;
#102 = CARTESIAN_POINT ( 'NONE',  ( -0.5000000000000006661, 10.00000000000000000, 0.000000000000000000 ) ) ;
#103 = EDGE_CURVE ( 'NONE', #27, #176, #48, .T. ) ;
#104 = DIRECTION ( 'NONE',  ( -1.000000000000000000, -0.000000000000000000, -0.000000000000000000 ) ) ;
#105 = DIRECTION ( 'NONE',  ( 0.000000000000000000, 0.000000000000000000, -1.000000000000000000 ) ) ;
#106 = CARTESIAN_POINT ( 'NONE',  ( -3.000000000000000000, 1.555301434917138433E-15, -12.69999999999999929 ) ) ;
#107 = DIRECTION ( 'NONE',  ( -1.000000000000000000, -0.000000000000000000, -0.000000000000000000 ) ) ;
#108 = DIRECTION ( 'NONE',  ( 0.000000000000000000, 0.000000000000000000, -1.000000000000000000 ) ) ;
#109 = DIRECTION ( 'NONE',  ( -1.000000000000000000, -0.000000000000000000, -0.000000000000000000 ) ) ;
#110 = AXIS2_PLACEMENT_3D ( 'NONE', #124, #255, #132 ) ;
#111 = CC_DESIGN_PERSON_AND_ORGANIZATION_ASSIGNMENT ( #139, #219, ( #297 ) ) ;
#112 = MANIFOLD_SOLID_BREP ( 'Ðý×', #117 ) ;
#113 = EDGE_CURVE ( 'NONE', #141, #173, #300, .T. ) ;
#114 = ORIENTED_EDGE ( 'NONE', *, *, #57, .F. ) ;
#115 = EDGE_CURVE ( 'NONE', #69, #308, #328, .T. ) ;
#116 = APPROVAL_DATE_TIME ( #267, #307 ) ;
#117 = CLOSED_SHELL ( 'NONE', ( #208, #3, #200, #221, #333, #190, #53, #152, #23, #33 ) ) ;
#118 = AXIS2_PLACEMENT_3D ( 'NONE', #101, #188, #284 ) ;
#119 = DIRECTION ( 'NONE',  ( -0.000000000000000000, 0.000000000000000000, 1.000000000000000000 ) ) ;
#120 = VERTEX_POINT ( 'NONE', #191 ) ;
#121 = EDGE_LOOP ( 'NONE', ( #254, #201 ) ) ;
#122 = AXIS2_PLACEMENT_3D ( 'NONE', #102, #199, #105 ) ;
#123 = VECTOR ( 'NONE', #83, 1000.000000000000000 ) ;
#124 = CARTESIAN_POINT ( 'NONE',  ( 3.000000000000000000, 0.000000000000000000, 0.000000000000000000 ) ) ;
#125 = DIRECTION ( 'NONE',  ( -1.000000000000000000, -0.000000000000000000, -0.000000000000000000 ) ) ;
#126 = CARTESIAN_POINT ( 'NONE',  ( 0.5000000000000006661, 10.00000000000000000, 0.000000000000000000 ) ) ;
#127 = CARTESIAN_POINT ( 'NONE',  ( -1.614212418857619014, 0.000000000000000000, 0.000000000000000000 ) ) ;
#128 = DIRECTION ( 'NONE',  ( -1.000000000000000000, -0.000000000000000000, -0.000000000000000000 ) ) ;
#129 = AXIS2_PLACEMENT_3D ( 'NONE', #86, #10, #186 ) ;
#130 = SECURITY_CLASSIFICATION ( '', '', #142 ) ;
#131 = PLANE ( 'NONE',  #39 ) ;
#132 = DIRECTION ( 'NONE',  ( 0.000000000000000000, 0.000000000000000000, 1.000000000000000000 ) ) ;
#133 = PRODUCT_RELATED_PRODUCT_CATEGORY ( 'detail', '', ( #177 ) ) ;
#134 = APPROVAL_STATUS ( 'not_yet_approved' ) ;
#135 = AXIS2_PLACEMENT_3D ( 'NONE', #204, #260, #55 ) ;
#136 = DATE_AND_TIME ( #89, #9 ) ;
#137 = APPROVAL_PERSON_ORGANIZATION ( #195, #93, #298 ) ;
#138 = ORIENTED_EDGE ( 'NONE', *, *, #97, .F. ) ;
#139 = PERSON_AND_ORGANIZATION ( #247, #155 ) ;
#140 = EDGE_CURVE ( 'NONE', #252, #308, #287, .T. ) ;
#141 = VERTEX_POINT ( 'NONE', #60 ) ;
#142 = SECURITY_CLASSIFICATION_LEVEL ( 'unclassified' ) ;
#143 = AXIS2_PLACEMENT_3D ( 'NONE', #161, #230, #236 ) ;
#144 = ORIENTED_EDGE ( 'NONE', *, *, #311, .F. ) ;
#145 = ORIENTED_EDGE ( 'NONE', *, *, #140, .F. ) ;
#146 = APPROVAL_ROLE ( '' ) ;
#147 = AXIS2_PLACEMENT_3D ( 'NONE', #290, #256, #228 ) ;
#148 = EDGE_LOOP ( 'NONE', ( #302, #313 ) ) ;
#149 = CIRCLE ( 'NONE', #110, 12.69999999999999929 ) ;
#150 = PRODUCT_DEFINITION_SHAPE ( 'NONE', 'NONE',  #297 ) ;
#151 = ORIENTED_EDGE ( 'NONE', *, *, #278, .T. ) ;
#152 = ADVANCED_FACE ( 'NONE', ( #165 ), #35, .T. ) ;
#153 = ORIENTED_EDGE ( 'NONE', *, *, #281, .F. ) ;
#154 = CARTESIAN_POINT ( 'NONE',  ( 3.000000000000000000, 1.555301434917138433E-15, -12.69999999999999929 ) ) ;
#155 = ORGANIZATION ( 'UNSPECIFIED', 'UNSPECIFIED', '' ) ;
#156 = DIRECTION ( 'NONE',  ( 0.000000000000000000, 0.000000000000000000, -1.000000000000000000 ) ) ;
#157 = DATE_AND_TIME ( #251, #175 ) ;
#158 = CYLINDRICAL_SURFACE ( 'NONE', #135, 10.00000000000000000 ) ;
#159 = CARTESIAN_POINT ( 'NONE',  ( -3.000000000000000000, 0.000000000000000000, 0.000000000000000000 ) ) ;
#160 = CARTESIAN_POINT ( 'NONE',  ( 2.999999999999999112, 0.000000000000000000, 0.000000000000000000 ) ) ;
#161 = CARTESIAN_POINT ( 'NONE',  ( 0.5000000000000013323, 0.000000000000000000, 0.000000000000000000 ) ) ;
#162 = AXIS2_PLACEMENT_3D ( 'NONE', #159, #77, #12 ) ;
#163 = LOCAL_TIME ( 10, 43, 10.00000000000000000, #323 ) ;
#164 = DIRECTION ( 'NONE',  ( -0.000000000000000000, 0.000000000000000000, 1.000000000000000000 ) ) ;
#165 = FACE_OUTER_BOUND ( 'NONE', #279, .T. ) ;
#166 = CC_DESIGN_PERSON_AND_ORGANIZATION_ASSIGNMENT ( #273, #327, ( #21 ) ) ;
#167 = CARTESIAN_POINT ( 'NONE',  ( 0.000000000000000000, 0.000000000000000000, 0.000000000000000000 ) ) ;
#168 = CARTESIAN_POINT ( 'NONE',  ( 3.000000000000000000, 0.000000000000000000, 12.69999999999999929 ) ) ;
#169 = APPLICATION_CONTEXT ( 'configuration controlled 3d designs of mechanical parts and assemblies' ) ;
#170 = CALENDAR_DATE ( 2021, 5, 1 ) ;
#171 = AXIS2_PLACEMENT_3D ( 'NONE', #167, #325, #44 ) ;
#172 = PERSON_AND_ORGANIZATION ( #247, #155 ) ;
#173 = VERTEX_POINT ( 'NONE', #293 ) ;
#174 = VECTOR ( 'NONE', #80, 1000.000000000000000 ) ;
#175 = LOCAL_TIME ( 10, 43, 10.00000000000000000, #56 ) ;
#176 = VERTEX_POINT ( 'NONE', #63 ) ;
#177 = PRODUCT ( 'QM-AAQWP-20-550-750-M', 'QM-AAQWP-20-550-750-M', '', ( #294 ) ) ;
#178 = ADVANCED_BREP_SHAPE_REPRESENTATION ( 'QM-AAQWP-20-550-750-M', ( #112, #171 ), #45 ) ;
#179 = VERTEX_POINT ( 'NONE', #265 ) ;
#180 = EDGE_CURVE ( 'NONE', #252, #184, #16, .T. ) ;
#181 = AXIS2_PLACEMENT_3D ( 'NONE', #14, #109, #213 ) ;
#182 = ORIENTED_EDGE ( 'NONE', *, *, #97, .T. ) ;
#183 = APPROVAL_PERSON_ORGANIZATION ( #303, #197, #146 ) ;
#184 = VERTEX_POINT ( 'NONE', #168 ) ;
#185 = CARTESIAN_POINT ( 'NONE',  ( -0.5000000000000006661, 0.000000000000000000, 0.000000000000000000 ) ) ;
#186 = DIRECTION ( 'NONE',  ( 0.000000000000000000, 0.000000000000000000, 1.000000000000000000 ) ) ;
#187 = AXIS2_PLACEMENT_3D ( 'NONE', #160, #253, #76 ) ;
#188 = DIRECTION ( 'NONE',  ( -1.000000000000000000, -0.000000000000000000, -0.000000000000000000 ) ) ;
#189 = DIRECTION ( 'NONE',  ( 1.000000000000000000, 0.000000000000000000, 0.000000000000000000 ) ) ;
#190 = ADVANCED_FACE ( 'NONE', ( #90 ), #295, .F. ) ;
#191 = CARTESIAN_POINT ( 'NONE',  ( -3.000000000000000000, 0.000000000000000000, 10.00000000000000000 ) ) ;
#192 = CYLINDRICAL_SURFACE ( 'NONE', #306, 10.00000000000000000 ) ;
#193 = COORDINATED_UNIVERSAL_TIME_OFFSET ( 8, 0, .AHEAD. ) ;
#194 = DIRECTION ( 'NONE',  ( 0.000000000000000000, 0.000000000000000000, 1.000000000000000000 ) ) ;
#195 = PERSON_AND_ORGANIZATION ( #247, #155 ) ;
#196 = ORIENTED_EDGE ( 'NONE', *, *, #311, .T. ) ;
#197 = APPROVAL ( #46, 'UNSPECIFIED' ) ;
#198 = EDGE_CURVE ( 'NONE', #179, #96, #218, .T. ) ;
#199 = DIRECTION ( 'NONE',  ( 1.000000000000000000, 0.000000000000000000, 0.000000000000000000 ) ) ;
#200 = ADVANCED_FACE ( 'NONE', ( #61 ), #158, .F. ) ;
#201 = ORIENTED_EDGE ( 'NONE', *, *, #258, .F. ) ;
#202 = CARTESIAN_POINT ( 'NONE',  ( 2.999999999999999556, 12.69999999999999929, 0.000000000000000000 ) ) ;
#203 = FACE_OUTER_BOUND ( 'NONE', #40, .T. ) ;
#204 = CARTESIAN_POINT ( 'NONE',  ( -1.614212418857619014, 0.000000000000000000, 0.000000000000000000 ) ) ;
#205 = ORIENTED_EDGE ( 'NONE', *, *, #330, .T. ) ;
#206 = FACE_OUTER_BOUND ( 'NONE', #250, .T. ) ;
#207 = LINE ( 'NONE', #209, #174 ) ;
#208 = ADVANCED_FACE ( 'NONE', ( #312 ), #59, .T. ) ;
#209 = CARTESIAN_POINT ( 'NONE',  ( -1.614212418857619014, 1.224646799147353256E-15, -10.00000000000000000 ) ) ;
#210 = CC_DESIGN_DATE_AND_TIME_ASSIGNMENT ( #240, #92, ( #297 ) ) ;
#211 = LINE ( 'NONE', #318, #123 ) ;
#212 = PERSON_AND_ORGANIZATION ( #247, #155 ) ;
#213 = DIRECTION ( 'NONE',  ( 0.000000000000000000, 0.000000000000000000, 1.000000000000000000 ) ) ;
#214 = PERSON_AND_ORGANIZATION ( #247, #155 ) ;
#215 = ORIENTED_EDGE ( 'NONE', *, *, #180, .T. ) ;
#216 = PERSON_AND_ORGANIZATION_ROLE ( 'creator' ) ;
#217 = ORIENTED_EDGE ( 'NONE', *, *, #43, .T. ) ;
#218 = CIRCLE ( 'NONE', #237, 10.00000000000000000 ) ;
#219 = PERSON_AND_ORGANIZATION_ROLE ( 'creator' ) ;
#220 = AXIS2_PLACEMENT_3D ( 'NONE', #34, #104, #314 ) ;
#221 = ADVANCED_FACE ( 'NONE', ( #286 ), #74, .F. ) ;
#222 = EDGE_LOOP ( 'NONE', ( #138, #326, #274, #42 ) ) ;
#223 = EDGE_LOOP ( 'NONE', ( #151, #66, #225, #153 ) ) ;
#224 = CIRCLE ( 'NONE', #147, 10.00000000000000000 ) ;
#225 = ORIENTED_EDGE ( 'NONE', *, *, #115, .F. ) ;
#226 = LINE ( 'NONE', #4, #296 ) ;
#227 = LINE ( 'NONE', #229, #277 ) ;
#228 = DIRECTION ( 'NONE',  ( 0.000000000000000000, 0.000000000000000000, 1.000000000000000000 ) ) ;
#229 = CARTESIAN_POINT ( 'NONE',  ( -1.614212418857619014, 0.000000000000000000, 12.69999999999999929 ) ) ;
#230 = DIRECTION ( 'NONE',  ( -1.000000000000000000, -0.000000000000000000, -0.000000000000000000 ) ) ;
#231 = AXIS2_PLACEMENT_3D ( 'NONE', #202, #248, #119 ) ;
#232 = CARTESIAN_POINT ( 'NONE',  ( -0.5000000000000006661, 0.000000000000000000, 0.000000000000000000 ) ) ;
#233 = DIRECTION ( 'NONE',  ( 0.000000000000000000, 0.000000000000000000, 1.000000000000000000 ) ) ;
#234 = CARTESIAN_POINT ( 'NONE',  ( -3.000000000000000000, 10.00000000000000000, 0.000000000000000000 ) ) ;
#235 = PERSON_AND_ORGANIZATION_ROLE ( 'classification_officer' ) ;
#236 = DIRECTION ( 'NONE',  ( 0.000000000000000000, 0.000000000000000000, 1.000000000000000000 ) ) ;
#237 = AXIS2_PLACEMENT_3D ( 'NONE', #232, #189, #108 ) ;
#238 = AXIS2_PLACEMENT_3D ( 'NONE', #185, #11, #156 ) ;
#239 = EDGE_LOOP ( 'NONE', ( #100, #24 ) ) ;
#240 = DATE_AND_TIME ( #170, #301 ) ;
#241 = ORIENTED_EDGE ( 'NONE', *, *, #278, .F. ) ;
#242 = EDGE_CURVE ( 'NONE', #176, #27, #315, .T. ) ;
#243 = UNCERTAINTY_MEASURE_WITH_UNIT (LENGTH_MEASURE( 1.000000000000000082E-05 ), #309, 'distance_accuracy_value', 'NONE');
#244 = CC_DESIGN_DATE_AND_TIME_ASSIGNMENT ( #292, #62, ( #130 ) ) ;
#245 = CC_DESIGN_APPROVAL ( #197, ( #130 ) ) ;
#246 = CALENDAR_DATE ( 2021, 5, 1 ) ;
#247 = PERSON ( 'UNSPECIFIED', 'UNSPECIFIED', 'UNSPECIFIED', ('UNSPECIFIED'), ('UNSPECIFIED'), ('UNSPECIFIED') ) ;
#248 = DIRECTION ( 'NONE',  ( -1.000000000000000000, 0.000000000000000000, -0.000000000000000000 ) ) ;
#249 = DIRECTION ( 'NONE',  ( 0.000000000000000000, 0.000000000000000000, 1.000000000000000000 ) ) ;
#250 = EDGE_LOOP ( 'NONE', ( #268, #271, #196, #275 ) ) ;
#251 = CALENDAR_DATE ( 2021, 5, 1 ) ;
#252 = VERTEX_POINT ( 'NONE', #154 ) ;
#253 = DIRECTION ( 'NONE',  ( -1.000000000000000000, -0.000000000000000000, -0.000000000000000000 ) ) ;
#254 = ORIENTED_EDGE ( 'NONE', *, *, #198, .F. ) ;
#255 = DIRECTION ( 'NONE',  ( -1.000000000000000000, -0.000000000000000000, -0.000000000000000000 ) ) ;
#256 = DIRECTION ( 'NONE',  ( -1.000000000000000000, -0.000000000000000000, -0.000000000000000000 ) ) ;
#257 = DIRECTION ( 'NONE',  ( -1.000000000000000000, -0.000000000000000000, -0.000000000000000000 ) ) ;
#258 = EDGE_CURVE ( 'NONE', #96, #179, #291, .T. ) ;
#259 = LINE ( 'NONE', #30, #20 ) ;
#260 = DIRECTION ( 'NONE',  ( -1.000000000000000000, -0.000000000000000000, -0.000000000000000000 ) ) ;
#261 = DIRECTION ( 'NONE',  ( -1.000000000000000000, -0.000000000000000000, -0.000000000000000000 ) ) ;
#262 = LOCAL_TIME ( 10, 43, 10.00000000000000000, #320 ) ;
#263 = CARTESIAN_POINT ( 'NONE',  ( -3.000000000000000000, 0.000000000000000000, 0.000000000000000000 ) ) ;
#264 = APPLICATION_PROTOCOL_DEFINITION ( 'international standard', 'config_control_design', 1994, #169 ) ;
#265 = CARTESIAN_POINT ( 'NONE',  ( -0.5000000000000006661, 0.000000000000000000, 10.00000000000000000 ) ) ;
#266 = CC_DESIGN_PERSON_AND_ORGANIZATION_ASSIGNMENT ( #172, #216, ( #21 ) ) ;
#267 = DATE_AND_TIME ( #246, #163 ) ;
#268 = ORIENTED_EDGE ( 'NONE', *, *, #43, .F. ) ;
#269 = AXIS2_PLACEMENT_3D ( 'NONE', #25, #125, #249 ) ;
#270 = CC_DESIGN_SECURITY_CLASSIFICATION ( #130, ( #21 ) ) ;
#271 = ORIENTED_EDGE ( 'NONE', *, *, #242, .F. ) ;
#272 = CC_DESIGN_PERSON_AND_ORGANIZATION_ASSIGNMENT ( #214, #38, ( #177 ) ) ;
#273 = PERSON_AND_ORGANIZATION ( #247, #155 ) ;
#274 = ORIENTED_EDGE ( 'NONE', *, *, #28, .T. ) ;
#275 = ORIENTED_EDGE ( 'NONE', *, *, #113, .T. ) ;
#276 = CIRCLE ( 'NONE', #289, 10.00000000000000000 ) ;
#277 = VECTOR ( 'NONE', #5, 1000.000000000000000 ) ;
#278 = EDGE_CURVE ( 'NONE', #184, #252, #149, .T. ) ;
#279 = EDGE_LOOP ( 'NONE', ( #145, #215, #1, #114 ) ) ;
#280 = CYLINDRICAL_SURFACE ( 'NONE', #269, 10.00000000000000000 ) ;
#281 = EDGE_CURVE ( 'NONE', #184, #69, #227, .T. ) ;
#282 = ORIENTED_EDGE ( 'NONE', *, *, #180, .F. ) ;
#283 = DIRECTION ( 'NONE',  ( -1.000000000000000000, -0.000000000000000000, -0.000000000000000000 ) ) ;
#284 = DIRECTION ( 'NONE',  ( 0.000000000000000000, 0.000000000000000000, 1.000000000000000000 ) ) ;
#285 = DIRECTION ( 'NONE',  ( 1.000000000000000000, 0.000000000000000000, 0.000000000000000000 ) ) ;
#286 = FACE_OUTER_BOUND ( 'NONE', #329, .T. ) ;
#287 = LINE ( 'NONE', #32, #26 ) ;
#288 = DIRECTION ( 'NONE',  ( -1.000000000000000000, -0.000000000000000000, -0.000000000000000000 ) ) ;
#289 = AXIS2_PLACEMENT_3D ( 'NONE', #263, #283, #37 ) ;
#290 = CARTESIAN_POINT ( 'NONE',  ( 0.5000000000000013323, 0.000000000000000000, 0.000000000000000000 ) ) ;
#291 = CIRCLE ( 'NONE', #238, 10.00000000000000000 ) ;
#292 = DATE_AND_TIME ( #87, #262 ) ;
#293 = CARTESIAN_POINT ( 'NONE',  ( 0.5000000000000013323, 1.224646799147353256E-15, -10.00000000000000000 ) ) ;
#294 = MECHANICAL_CONTEXT ( 'NONE', #78, 'mechanical' ) ;
#295 = CYLINDRICAL_SURFACE ( 'NONE', #54, 10.00000000000000000 ) ;
#296 = VECTOR ( 'NONE', #22, 1000.000000000000000 ) ;
#297 = PRODUCT_DEFINITION ( 'UNKNOWN', '', #21, #13 ) ;
#298 = APPROVAL_ROLE ( '' ) ;
#299 = ORIENTED_EDGE ( 'NONE', *, *, #36, .T. ) ;
#300 = CIRCLE ( 'NONE', #143, 10.00000000000000000 ) ;
#301 = LOCAL_TIME ( 10, 43, 10.00000000000000000, #64 ) ;
#302 = ORIENTED_EDGE ( 'NONE', *, *, #82, .F. ) ;
#303 = PERSON_AND_ORGANIZATION ( #247, #155 ) ;
#304 = ORIENTED_EDGE ( 'NONE', *, *, #198, .T. ) ;
#305 = EDGE_LOOP ( 'NONE', ( #52, #217, #299, #144 ) ) ;
#306 = AXIS2_PLACEMENT_3D ( 'NONE', #79, #257, #233 ) ;
#307 = APPROVAL ( #19, 'UNSPECIFIED' ) ;
#308 = VERTEX_POINT ( 'NONE', #106 ) ;
#309 =( LENGTH_UNIT ( ) NAMED_UNIT ( * ) SI_UNIT ( .MILLI., .METRE. ) );
#310 = FACE_BOUND ( 'NONE', #51, .T. ) ;
#311 = EDGE_CURVE ( 'NONE', #176, #141, #211, .T. ) ;
#312 = FACE_OUTER_BOUND ( 'NONE', #223, .T. ) ;
#313 = ORIENTED_EDGE ( 'NONE', *, *, #330, .F. ) ;
#314 = DIRECTION ( 'NONE',  ( 0.000000000000000000, 0.000000000000000000, 1.000000000000000000 ) ) ;
#315 = CIRCLE ( 'NONE', #187, 10.00000000000000000 ) ;
#316 = CARTESIAN_POINT ( 'NONE',  ( -3.000000000000000000, 1.224646799147353256E-15, -10.00000000000000000 ) ) ;
#317 = CARTESIAN_POINT ( 'NONE',  ( -3.000000000000000000, 0.000000000000000000, 0.000000000000000000 ) ) ;
#318 = CARTESIAN_POINT ( 'NONE',  ( -1.614212418857619014, 0.000000000000000000, 10.00000000000000000 ) ) ;
#319 = FACE_BOUND ( 'NONE', #148, .T. ) ;
#320 = COORDINATED_UNIVERSAL_TIME_OFFSET ( 8, 0, .AHEAD. ) ;
#321 = CC_DESIGN_PERSON_AND_ORGANIZATION_ASSIGNMENT ( #212, #235, ( #130 ) ) ;
#322 = CC_DESIGN_APPROVAL ( #93, ( #21 ) ) ;
#323 = COORDINATED_UNIVERSAL_TIME_OFFSET ( 8, 0, .AHEAD. ) ;
#324 = DIRECTION ( 'NONE',  ( -1.000000000000000000, -0.000000000000000000, -0.000000000000000000 ) ) ;
#325 = DIRECTION ( 'NONE',  ( 0.000000000000000000, 0.000000000000000000, 1.000000000000000000 ) ) ;
#326 = ORIENTED_EDGE ( 'NONE', *, *, #258, .T. ) ;
#327 = PERSON_AND_ORGANIZATION_ROLE ( 'design_supplier' ) ;
#328 = CIRCLE ( 'NONE', #71, 12.69999999999999929 ) ;
#329 = EDGE_LOOP ( 'NONE', ( #332, #47 ) ) ;
#330 = EDGE_CURVE ( 'NONE', #49, #120, #94, .T. ) ;
#331 = AXIS2_PLACEMENT_3D ( 'NONE', #126, #85, #164 ) ;
#332 = ORIENTED_EDGE ( 'NONE', *, *, #113, .F. ) ;
#333 = ADVANCED_FACE ( 'NONE', ( #206 ), #192, .F. ) ;
#334 = FACE_OUTER_BOUND ( 'NONE', #121, .T. ) ;
#335 = FACE_OUTER_BOUND ( 'NONE', #67, .T. ) ;
ENDSEC;
END-ISO-10303-21;
